0
SECTION
2
HEADER
9
$INSUNITS
70
4
9
$ACADVER
1
AC1014
9
$HANDSEED
5
FFFF
0
ENDSEC
0
SECTION
2
TABLES
0
TABLE
2
VPORT
5
8
100
AcDbSymbolTable
0
ENDTAB
0
TABLE
2
LTYPE
5
5
100
AcDbSymbolTable
0
LTYPE
5
14
100
AcDbSymbolTableRecord
100
AcDbLinetypeTableRecord
2
BYBLOCK
70
0
0
LTYPE
5
15
100
AcDbSymbolTableRecord
100
AcDbLinetypeTableRecord
2
BYLAYER
70
0
0
ENDTAB
0
TABLE
2
LAYER
5
2
100
AcDbSymbolTable
70
2
0
LAYER
5
50
100
AcDbSymbolTableRecord
100
AcDbLayerTableRecord
2
0
70
0
6
CONTINUOUS
0
ENDTAB
0
TABLE
2
STYLE
5
3
100
AcDbSymbolTable
70
1
0
STYLE
5
11
100
AcDbSymbolTableRecord
100
AcDbTextStyleTableRecord
2
STANDARD
70
0
0
ENDTAB
0
TABLE
2
VIEW
5
6
100
AcDbSymbolTable
70
0
0
ENDTAB
0
TABLE
2
UCS
5
7
100
AcDbSymbolTable
70
0
0
ENDTAB
0
TABLE
2
APPID
5
9
100
AcDbSymbolTable
70
2
0
APPID
5
12
100
AcDbSymbolTableRecord
100
AcDbRegAppTableRecord
2
ACAD
70
0
0
ENDTAB
0
TABLE
2
DIMSTYLE
5
A
100
AcDbSymbolTable
70
1
0
ENDTAB
0
TABLE
2
BLOCK_RECORD
5
1
100
AcDbSymbolTable
70
1
0
BLOCK_RECORD
5
1F
100
AcDbSymbolTableRecord
100
AcDbBlockTableRecord
2
*MODEL_SPACE
0
BLOCK_RECORD
5
1B
100
AcDbSymbolTableRecord
100
AcDbBlockTableRecord
2
*PAPER_SPACE
0
ENDTAB
0
ENDSEC
0
SECTION
2
BLOCKS
0
BLOCK
5
20
100
AcDbEntity
100
AcDbBlockBegin
2
*MODEL_SPACE
0
ENDBLK
5
21
100
AcDbEntity
100
AcDbBlockEnd
0
BLOCK
5
1C
100
AcDbEntity
100
AcDbBlockBegin
2
*PAPER_SPACE
0
ENDBLK
5
1D
100
AcDbEntity
100
AcDbBlockEnd
0
ENDSEC
0
SECTION
2
ENTITIES
0
CIRCLE
5
100
100
AcDbEntity
8
0
100
AcDbCircle
10
206.85134848612205
20
-410.48790908298099
30
3.5527136788005009e-14
40
1.6000000000000014
210
-1.6337776247943784e-32
220
-7.5995748327296868e-53
230
1
0
CIRCLE
5
101
100
AcDbEntity
8
0
100
AcDbCircle
10
296.05134848415611
20
-152.48790908418573
30
3.5527136788005009e-14
40
1.6000000000000014
210
-1.6337776247943784e-32
220
-7.5995748327296868e-53
230
1
0
CIRCLE
5
102
100
AcDbEntity
8
0
100
AcDbCircle
10
652.85134848415612
20
-152.48790908146691
30
0
40
1.5999999999999659
210
8.3141270402128349e-33
220
3.8673458157361485e-53
230
1
0
CIRCLE
5
103
100
AcDbEntity
8
0
100
AcDbCircle
10
652.85134848612199
20
-496.48790908298105
30
3.5527136788005009e-14
40
1.5999999999999659
210
8.3141270402128349e-33
220
3.8673458157361485e-53
230
1
0
CIRCLE
5
104
100
AcDbEntity
8
0
100
AcDbCircle
10
474.45134848612201
20
-668.48790908298099
30
3.5527136788005009e-14
40
1.5999999999999659
210
8.3141270402128349e-33
220
3.8673458157361485e-53
230
1
0
CIRCLE
5
105
100
AcDbEntity
8
0
100
AcDbCircle
10
206.85134848612205
20
-668.48790908298099
30
3.5527136788005009e-14
40
1.6000000000000014
210
-1.6337776247943784e-32
220
-7.5995748327296868e-53
230
1
0
CIRCLE
5
106
100
AcDbEntity
8
0
100
AcDbCircle
10
563.65134848612206
20
-668.48790908298099
30
3.5527136788005009e-14
40
1.5999999999999659
210
8.3141270402128349e-33
220
3.8673458157361485e-53
230
1
0
CIRCLE
5
107
100
AcDbEntity
8
0
100
AcDbCircle
10
652.85134848612199
20
-410.48790908298099
30
0
40
1.5999999999999659
210
8.3141270402128349e-33
220
3.8673458157361485e-53
230
1
0
CIRCLE
5
108
100
AcDbEntity
8
0
100
AcDbCircle
10
563.65134848415607
20
-152.48790908214661
30
3.5527136788005009e-14
40
1.5999999999999659
210
8.3141270402128349e-33
220
3.8673458157361485e-53
230
1
0
CIRCLE
5
109
100
AcDbEntity
8
0
100
AcDbCircle
10
206.85134848415606
20
-152.48790908486544
30
3.5527136788005009e-14
40
1.6000000000000014
210
-1.6337776247943784e-32
220
-7.5995748327296868e-53
230
1
0
CIRCLE
5
110
100
AcDbEntity
8
0
100
AcDbCircle
10
206.85134848612205
20
-496.48790908298105
30
3.5527136788005009e-14
40
1.6000000000000014
210
-1.6337776247943784e-32
220
-7.5995748327296868e-53
230
1
0
CIRCLE
5
111
100
AcDbEntity
8
0
100
AcDbCircle
10
206.8513484854667
20
-324.48790908486546
30
0
40
1.6000000000000014
210
-1.6337776247943784e-32
220
-7.5995748327296868e-53
230
1
0
CIRCLE
5
112
100
AcDbEntity
8
0
100
AcDbCircle
10
385.25134848415604
20
-152.48790908350603
30
0
40
1.5999999999999659
210
8.3141270402128349e-33
220
3.8673458157361485e-53
230
1
0
CIRCLE
5
113
100
AcDbEntity
8
0
100
AcDbCircle
10
652.8513484848113
20
-238.48790908146682
30
3.5527136788005009e-14
40
1.5999999999999659
210
8.3141270402128349e-33
220
3.8673458157361485e-53
230
1
0
CIRCLE
5
114
100
AcDbEntity
8
0
100
AcDbCircle
10
652.85134848612199
20
-582.4879090829811
30
0
40
1.5999999999999659
210
8.3141270402128349e-33
220
3.8673458157361485e-53
230
1
0
CIRCLE
5
115
100
AcDbEntity
8
0
100
AcDbCircle
10
385.25134848612197
20
-668.48790908298099
30
3.5527136788005009e-14
40
1.5999999999999659
210
8.3141270402128349e-33
220
3.8673458157361485e-53
230
1
0
CIRCLE
5
116
100
AcDbEntity
8
0
100
AcDbCircle
10
296.05134848612204
20
-668.48790908298099
30
3.5527136788005009e-14
40
1.6000000000000014
210
-1.6337776247943784e-32
220
-7.5995748327296868e-53
230
1
0
CIRCLE
5
117
100
AcDbEntity
8
0
100
AcDbCircle
10
652.85134848612199
20
-668.48790908298099
30
3.5527136788005009e-14
40
1.5999999999999659
210
8.3141270402128349e-33
220
3.8673458157361485e-53
230
1
0
CIRCLE
5
118
100
AcDbEntity
8
0
100
AcDbCircle
10
652.85134848546681
20
-324.48790908146691
30
0
40
1.5999999999999659
210
8.3141270402128349e-33
220
3.8673458157361485e-53
230
1
0
CIRCLE
5
119
100
AcDbEntity
8
0
100
AcDbCircle
10
474.45134848415603
20
-152.48790908282632
30
3.5527136788005009e-14
40
1.5999999999999659
210
8.3141270402128349e-33
220
3.8673458157361485e-53
230
1
0
CIRCLE
5
120
100
AcDbEntity
8
0
100
AcDbCircle
10
206.85134848481141
20
-238.48790908486535
30
3.5527136788005009e-14
40
1.6000000000000014
210
-1.6337776247943784e-32
220
-7.5995748327296868e-53
230
1
0
CIRCLE
5
121
100
AcDbEntity
8
0
100
AcDbCircle
10
206.85134848612205
20
-582.4879090829811
30
3.5527136788005009e-14
40
1.6000000000000014
210
-1.6337776247943784e-32
220
-7.5995748327296868e-53
230
1
0
LWPOLYLINE
5
122
100
AcDbEntity
8
0
100
AcDbPolyline
90
4
70
1
43
0.0
10
665.85134850668499
20
-681.4879090812326
10
193.85134848617139
20
-681.4879090830309
10
193.85134848410615
20
-139.48790908491557
10
665.85134850461952
20
-139.48790908311707
0
ENDSEC
0
SECTION
2
OBJECTS
0
DICTIONARY
5
C
100
AcDbDictionary
3
ACAD_GROUP
350
D
3
ACAD_MLINESTYLE
350
17
0
DICTIONARY
5
D
100
AcDbDictionary
0
DICTIONARY
5
1A
330
C
100
AcDbDictionary
0
DICTIONARY
5
17
100
AcDbDictionary
0
ENDSEC
0
EOF
