0
SECTION
2
HEADER
9
$INSUNITS
70
4
9
$ACADVER
1
AC1014
9
$HANDSEED
5
FFFF
0
ENDSEC
0
SECTION
2
TABLES
0
TABLE
2
VPORT
5
8
100
AcDbSymbolTable
0
ENDTAB
0
TABLE
2
LTYPE
5
5
100
AcDbSymbolTable
0
LTYPE
5
14
100
AcDbSymbolTableRecord
100
AcDbLinetypeTableRecord
2
BYBLOCK
70
0
0
LTYPE
5
15
100
AcDbSymbolTableRecord
100
AcDbLinetypeTableRecord
2
BYLAYER
70
0
0
ENDTAB
0
TABLE
2
LAYER
5
2
100
AcDbSymbolTable
70
2
0
LAYER
5
50
100
AcDbSymbolTableRecord
100
AcDbLayerTableRecord
2
0
70
0
6
CONTINUOUS
0
ENDTAB
0
TABLE
2
STYLE
5
3
100
AcDbSymbolTable
70
1
0
STYLE
5
11
100
AcDbSymbolTableRecord
100
AcDbTextStyleTableRecord
2
STANDARD
70
0
0
ENDTAB
0
TABLE
2
VIEW
5
6
100
AcDbSymbolTable
70
0
0
ENDTAB
0
TABLE
2
UCS
5
7
100
AcDbSymbolTable
70
0
0
ENDTAB
0
TABLE
2
APPID
5
9
100
AcDbSymbolTable
70
2
0
APPID
5
12
100
AcDbSymbolTableRecord
100
AcDbRegAppTableRecord
2
ACAD
70
0
0
ENDTAB
0
TABLE
2
DIMSTYLE
5
A
100
AcDbSymbolTable
70
1
0
ENDTAB
0
TABLE
2
BLOCK_RECORD
5
1
100
AcDbSymbolTable
70
1
0
BLOCK_RECORD
5
1F
100
AcDbSymbolTableRecord
100
AcDbBlockTableRecord
2
*MODEL_SPACE
0
BLOCK_RECORD
5
1B
100
AcDbSymbolTableRecord
100
AcDbBlockTableRecord
2
*PAPER_SPACE
0
ENDTAB
0
ENDSEC
0
SECTION
2
BLOCKS
0
BLOCK
5
20
100
AcDbEntity
100
AcDbBlockBegin
2
*MODEL_SPACE
0
ENDBLK
5
21
100
AcDbEntity
100
AcDbBlockEnd
0
BLOCK
5
1C
100
AcDbEntity
100
AcDbBlockBegin
2
*PAPER_SPACE
0
ENDBLK
5
1D
100
AcDbEntity
100
AcDbBlockEnd
0
ENDSEC
0
SECTION
2
ENTITIES
0
CIRCLE
5
100
100
AcDbEntity
8
0
100
AcDbCircle
10
239.19229778086506
20
-152.48631227453563
30
0
40
1.6000000000000014
210
-7.6863388642204364e-43
220
-1.2621774483536189e-29
230
1
0
CIRCLE
5
101
100
AcDbEntity
8
0
100
AcDbCircle
10
110.19229778210888
20
-668.48631227448152
30
0
40
1.600000000000108
210
-2.8823767366015433e-43
220
1.0022233018839714e-72
230
1
0
CIRCLE
5
102
100
AcDbEntity
8
0
100
AcDbCircle
10
110.19229778086509
20
-152.48631227453563
30
0
40
1.6000000000000014
210
1.9215844910577517e-43
220
-1.2621774483536189e-29
230
1
0
CIRCLE
5
103
100
AcDbEntity
8
0
100
AcDbCircle
10
239.19229778210888
20
-668.48631227448152
30
0
40
1.600000000000108
210
1.1529508296390317e-42
220
1.6035576537378366e-71
230
1
0
CIRCLE
5
104
100
AcDbEntity
8
0
100
AcDbCircle
10
77.558593280421704
20
-152.48631227454138
30
0
40
2.5999999999999979
210
-2.9592501645773638e-41
220
1.0563950740574274e-68
230
1
0
CIRCLE
5
105
100
AcDbEntity
8
0
100
AcDbCircle
10
77.520159828033144
20
-668.48631227448141
30
0
40
2.5999999999999979
210
-2.9592501645773638e-41
220
1.0563950740574274e-68
230
1
0
CIRCLE
5
106
100
AcDbEntity
8
0
100
AcDbCircle
10
77.403912452858506
20
-360.92001662427526
30
0
40
2.0999999999999863
210
-1.6854405708719561e-25
220
-4.5246119876217894e-30
230
1
0
CIRCLE
5
107
100
AcDbEntity
8
0
100
AcDbCircle
10
77.39914979691379
20
-460.05565319162326
30
0
40
2.1000000000000179
210
3.8251095812418031e-26
220
-1.4459426589488556e-29
230
1
0
CIRCLE
5
108
100
AcDbEntity
8
0
100
AcDbCircle
10
77.520159828033158
20
-610.48784031518574
30
0
40
1.5999999999999659
210
3.8251096418790994e-26
220
-1.8376521205179965e-30
230
1
0
CIRCLE
5
109
100
AcDbEntity
8
0
100
AcDbCircle
10
77.529768191130316
20
-510.48784077678926
30
1.4210854715202004e-13
40
1.5999999999999659
210
3.8251096418790994e-26
220
-1.8376521205179965e-30
230
1
0
CIRCLE
5
110
100
AcDbEntity
8
0
100
AcDbCircle
10
77.539376554227474
20
-410.48784123839266
30
0
40
1.5999999999999615
210
-1.6854405785756756e-25
220
-4.5246119506117208e-30
230
1
0
CIRCLE
5
111
100
AcDbEntity
8
0
100
AcDbCircle
10
77.548984917324631
20
-310.48784169999612
30
0
40
1.5999999999999659
210
3.8251096418790994e-26
220
-1.8376521205179965e-30
230
1
0
CIRCLE
5
112
100
AcDbEntity
8
0
100
AcDbCircle
10
77.558593280421718
20
-210.48784216159962
30
1.4210854715202004e-13
40
1.5999999999999659
210
3.8251096418790994e-26
220
-1.8376521205179965e-30
230
1
0
LWPOLYLINE
5
113
100
AcDbEntity
8
0
100
AcDbPolyline
90
4
70
1
43
0.0
10
31.113686500440423
20
-681.48631227448141
10
31.113686500440423
20
-139.48631227453544
10
313.67090906128965
20
-139.48631227453575
10
313.67090906128965
20
-681.48631227448163
0
CIRCLE
5
114
100
AcDbEntity
8
0
100
AcDbCircle
10
174.69229778086509
20
-152.48631227453563
30
0
40
1.6000000000000014
210
6.0497230981423218e-36
220
-1.2621774483536189e-29
230
1
0
CIRCLE
5
115
100
AcDbEntity
8
0
100
AcDbCircle
10
174.69229778210888
20
-668.48631227448152
30
0
40
1.600000000000108
210
6.0497288628930586e-36
220
4.415041887506994e-58
230
1
0
CIRCLE
5
116
100
AcDbEntity
8
0
100
AcDbCircle
10
303.67090903233714
20
-610.48631227446174
30
0
40
1.5999999999999659
210
6.0374266335585109e-36
220
4.3971040149360732e-58
230
1
0
CIRCLE
5
117
100
AcDbEntity
8
0
100
AcDbCircle
10
303.67090903233753
20
-210.48631227446165
30
0
40
1.5999999999999659
210
6.0374304767314953e-36
220
4.3971096129624388e-58
230
1
0
CIRCLE
5
118
100
AcDbEntity
8
0
100
AcDbCircle
10
303.67090903233742
20
-310.48631227446162
30
0
40
1.5999999999999659
210
6.0374304767314953e-36
220
4.3971096129624388e-58
230
1
0
CIRCLE
5
119
100
AcDbEntity
8
0
100
AcDbCircle
10
303.67090903109283
20
-663.48631227448948
30
0
40
2.6000000000000512
210
-2.0679515313221949e-25
220
-1.5061068414431459e-47
230
1
0
CIRCLE
5
120
100
AcDbEntity
8
0
100
AcDbCircle
10
303.67090903233725
20
-510.48631227446174
30
0
40
1.5999999999999659
210
6.0374266335585109e-36
220
4.3971040149360732e-58
230
1
0
CIRCLE
5
121
100
AcDbEntity
8
0
100
AcDbCircle
10
303.67090903358178
20
-157.48631227443391
30
0
40
2.6000000000000156
210
6.0374304767314967e-36
220
-1.2621774483536189e-29
230
1
0
CIRCLE
5
122
100
AcDbEntity
8
0
100
AcDbCircle
10
303.67090903233736
20
-410.48631227446174
30
0
40
1.5999999999999659
210
6.0374266335585109e-36
220
4.3971040149360732e-58
230
1
0
ENDSEC
0
SECTION
2
OBJECTS
0
DICTIONARY
5
C
100
AcDbDictionary
3
ACAD_GROUP
350
D
3
ACAD_MLINESTYLE
350
17
0
DICTIONARY
5
D
100
AcDbDictionary
0
DICTIONARY
5
1A
330
C
100
AcDbDictionary
0
DICTIONARY
5
17
100
AcDbDictionary
0
ENDSEC
0
EOF
