0
SECTION
2
HEADER
9
$INSUNITS
70
4
9
$ACADVER
1
AC1014
9
$HANDSEED
5
FFFF
0
ENDSEC
0
SECTION
2
TABLES
0
TABLE
2
VPORT
5
8
100
AcDbSymbolTable
0
ENDTAB
0
TABLE
2
LTYPE
5
5
100
AcDbSymbolTable
0
LTYPE
5
14
100
AcDbSymbolTableRecord
100
AcDbLinetypeTableRecord
2
BYBLOCK
70
0
0
LTYPE
5
15
100
AcDbSymbolTableRecord
100
AcDbLinetypeTableRecord
2
BYLAYER
70
0
0
ENDTAB
0
TABLE
2
LAYER
5
2
100
AcDbSymbolTable
70
2
0
LAYER
5
50
100
AcDbSymbolTableRecord
100
AcDbLayerTableRecord
2
0
70
0
6
CONTINUOUS
0
ENDTAB
0
TABLE
2
STYLE
5
3
100
AcDbSymbolTable
70
1
0
STYLE
5
11
100
AcDbSymbolTableRecord
100
AcDbTextStyleTableRecord
2
STANDARD
70
0
0
ENDTAB
0
TABLE
2
VIEW
5
6
100
AcDbSymbolTable
70
0
0
ENDTAB
0
TABLE
2
UCS
5
7
100
AcDbSymbolTable
70
0
0
ENDTAB
0
TABLE
2
APPID
5
9
100
AcDbSymbolTable
70
2
0
APPID
5
12
100
AcDbSymbolTableRecord
100
AcDbRegAppTableRecord
2
ACAD
70
0
0
ENDTAB
0
TABLE
2
DIMSTYLE
5
A
100
AcDbSymbolTable
70
1
0
ENDTAB
0
TABLE
2
BLOCK_RECORD
5
1
100
AcDbSymbolTable
70
1
0
BLOCK_RECORD
5
1F
100
AcDbSymbolTableRecord
100
AcDbBlockTableRecord
2
*MODEL_SPACE
0
BLOCK_RECORD
5
1B
100
AcDbSymbolTableRecord
100
AcDbBlockTableRecord
2
*PAPER_SPACE
0
ENDTAB
0
ENDSEC
0
SECTION
2
BLOCKS
0
BLOCK
5
20
100
AcDbEntity
100
AcDbBlockBegin
2
*MODEL_SPACE
0
ENDBLK
5
21
100
AcDbEntity
100
AcDbBlockEnd
0
BLOCK
5
1C
100
AcDbEntity
100
AcDbBlockBegin
2
*PAPER_SPACE
0
ENDBLK
5
1D
100
AcDbEntity
100
AcDbBlockEnd
0
ENDSEC
0
SECTION
2
ENTITIES
0
LWPOLYLINE
5
100
100
AcDbEntity
8
0
100
AcDbPolyline
90
24
70
1
43
0.0
10
-683.35134849553299
20
194.87139537289804
10
-196.35134849054
20
194.87139537289804
42
-0.4142135623730534
10
-195.85134849054
20
194.37139537289801
10
-195.85134849054
20
-38.628604627114001
42
-0.41421356237296497
10
-196.35134849054
20
-39.1286046271142
10
-225.85134848148499
20
-39.1286046271141
42
0.41421356237309398
10
-230.85134848148499
20
-44.1286046271141
10
-230.85134848148499
20
-79.628604627098397
42
-0.41421356237312623
10
-231.35134848148499
20
-80.128604627098397
10
-423.85134849053998
20
-80.128604627098412
42
-0.41421356237315748
10
-424.35134849054003
20
-79.628604627098397
10
-424.35134849054003
20
-49.928604622068207
42
0.41421356237318868
10
-424.85134849053998
20
-49.4286046220682
10
-454.85134849054106
20
-49.4286046220682
42
0.41421356237303258
10
-455.351348490541
20
-49.928604622068207
10
-455.351348490541
20
-79.628604627098397
42
-0.41421356237317308
10
-455.85134849053998
20
-80.128604627098397
10
-648.35134850458803
20
-80.128604627098412
42
-0.41421356237237184
10
-648.85134850458815
20
-79.628604627098397
10
-648.85134850458815
20
-44.1286046271141
42
0.41421356237307944
10
-653.85134850458815
20
-39.1286046271141
10
-683.35134849553299
20
-39.128604627114115
42
-0.41421356237345142
10
-683.85134849553299
20
-38.6286046271141
10
-683.85134849553299
20
194.37139537289801
42
-0.41421356237330315
0
CIRCLE
5
101
100
AcDbEntity
8
0
100
AcDbCircle
10
-207.85134849553071
20
-30.128604627217147
30
0
40
6.9999999999998455
210
-1.004637800627679e-14
220
1.4509247734337504e-15
230
1
0
CIRCLE
5
102
100
AcDbEntity
8
0
100
AcDbCircle
10
-207.85134849552668
20
-10.12860447820615
30
0
40
6.9999999999998472
210
-1.0046378006276825e-14
220
1.4509247734338076e-15
230
1
0
CIRCLE
5
103
100
AcDbEntity
8
0
100
AcDbCircle
10
-207.85134849552267
20
9.8713953727828603
30
0
40
6.9999999999998428
210
-1.0046378006276831e-14
220
1.4509247734338094e-15
230
1
0
CIRCLE
5
104
100
AcDbEntity
8
0
100
AcDbCircle
10
-671.8513484905418
20
-30.128604627217083
30
0
40
6.9999999999998455
210
0
220
0
230
1
0
CIRCLE
5
105
100
AcDbEntity
8
0
100
AcDbCircle
10
-671.85134849054577
20
-10.128604478206075
30
0
40
6.9999999999998597
210
0
220
0
230
1
0
CIRCLE
5
106
100
AcDbEntity
8
0
100
AcDbCircle
10
-671.85134849054975
20
9.8713953727829384
30
0
40
6.9999999999998463
210
0
220
0
230
1
0
CIRCLE
5
107
100
AcDbEntity
8
0
100
AcDbCircle
10
-394.682405663194
20
76.565663833019912
30
0
40
3.9999999999999858
210
-3.9443045261050781e-29
220
-1.7763568394002527e-14
230
1
0
CIRCLE
5
108
100
AcDbEntity
8
0
100
AcDbCircle
10
-394.68103706924603
20
24.765662720097517
30
0
40
3.9999999999999858
210
-7.8886090522101394e-29
220
-1.7763568394002489e-14
230
1
0
CIRCLE
5
109
100
AcDbEntity
8
0
100
AcDbCircle
10
-227.85134849553103
20
-10.128604627217024
30
0
40
2.2500000000000142
210
1.0284408838436961e-27
220
-9.4739031434681241e-14
230
1
0
CIRCLE
5
110
100
AcDbEntity
8
0
100
AcDbCircle
10
-651.85134849054202
20
-10.128604627216982
30
0
40
2.2499999999999432
210
-7.4795700643179425e-28
220
9.473903143468018e-14
230
1
0
ENDSEC
0
SECTION
2
OBJECTS
0
DICTIONARY
5
C
100
AcDbDictionary
3
ACAD_GROUP
350
D
3
ACAD_MLINESTYLE
350
17
0
DICTIONARY
5
D
100
AcDbDictionary
0
DICTIONARY
5
1A
330
C
100
AcDbDictionary
0
DICTIONARY
5
17
100
AcDbDictionary
0
ENDSEC
0
EOF
